Friday January 13, 2012
 

Orianthi According to You Guitar Tab

I've found most of the Guitar Tabs for Orianthi's According to You to be incorrect! Mainly because the authors don't take into account that her guitar is tuned two steps down and try to match her fingering to standard tuning. This is my version which I think is about 99% correct. The guitar tab is for standard tuning so if you want to play it the way Orianthi does AKA "C Tuning" then tune to  C-F-A♯-D♯-G-C and move the pattern two steps up. C tuning just makes it a bit easier to bend those notes.

This is a very Van Halen inspired guitar solo especially with the tapping section. Thumbs up for putting a guitar solo like this in a pop song and getting it on the charts!

Gtr I (E A D G B E) - 'Orianthi According to You - Guitar Tab'

#----------------------------------PLEASE NOTE---------------------------------#
#This file is the author's own work and represents their interpretation of the #
#song. You may only use this file for private study, scholarship, or research. #
#------------------------------------------------------------------------------#
 4/4
   W
   |
   /

  Gtr I
   W       E   E   E  E  E    W    E
|-17b19===15--13--12h13p12--------------|
|---------------------------/15\---5----|
|---------------------------------------|
|---------------------------------------|
|---------------------------------------|
|---------------------------------------|


  E E E E E E E E E E E E E E E E E E
|-5-6-8-6-5---5--------------------------|
|-----------8---8-6-5---5-6-5---5--------|
|---------------------7-------7---7-5----|
|----------------------------------------|
|----------------------------------------|
|----------------------------------------|


  E H   E E E  E
|--------------------|
|--------------------|
|--------------------|
|-7-5b7-3---3--------|
|---------5---[5]----|
|--------------------|


Tapping Section


   T T T
   E E E
|-10-8-6----|
|-----------|
|-----------|
|-----------|
|-----------|
|-----------|


   T  T T
   W  W W
|-12-10-8----|
|------------|
|------------|
|------------|
|------------|
|------------|


   T  T  T
   W  W  W
|-13-12-10----|
|-------------|
|-------------|
|-------------|
|-------------|
|-------------|


   W  W  W  W  W  W  W  W  W  W  W  W  W  W  W  W  W  W  W  W  W  W  W  W  W
|-15-12-10-13-12-10-15-12-10-17-12-10-18-12-10-17-12-10-15-12-10-13-12-10-12\----|
|--------------------------------------------------------------------------------|
|--------------------------------------------------------------------------------|
|--------------------------------------------------------------------------------|
|--------------------------------------------------------------------------------|
|--------------------------------------------------------------------------------|



    
   
   
    





    
   
   
    





Duration Legend
---------------
W - whole; H - half; Q - quarter; E - 8th; S - 16th; T - 32nd; X - 64th; a - acciaccatura
+ - note tied to previous; . - note dotted; .. - note double dotted
Uncapitalized letters represent notes that are staccato (1/2 duration)
Irregular groupings are notated above the duration line
Duration letters will always appear directly above the note/fret number it represents the
duration for.  Duration letters with no fret number below them represent rests.  Multi-
bar rests are notated in the form Wxn, where n is the number of bars to rest for.  Low
melody durations appear below the staff

Tablature Legend
----------------
 h   - hammer-on
 p   - pull-off
 b   - bend
 pb  - pre-bend
 r   - bend release (if no number after the r, then release immediately)
 /\  - slide into or out of (from/to "nowhere")
 s   - legato slide
 S   - shift slide
<n> - natural harmonic
[n]  - artificial harmonic
n(n) - tapped harmonic
 ~   - vibrato
 tr  - trill
 T   - tap
 TP  - trem. picking
 PM  - palm muting
\n/  - tremolo bar dip; n = amount to dip
 \n  - tremolo bar down
 n/  - tremolo bar up
/n\  - tremolo bar inverted dip
 =   - hold bend; also acts as connecting device for hammers/pulls
 <> - volume swell (louder/softer)
 x   - on rhythm slash represents muted slash
 o   - on rhythm slash represents single note slash

Misc Legend
-----------
 |  - bar
||  - double bar
||o - repeat start
o|| - repeat end
*|  - double bar (ending)
 :  - bar (freetime)
 $  - Segno
 &  - Coda
Tempo markers - <E/E./Q/Q./H/H.> = BPM(8/16=s8/s16), where s8 = swing 8ths, s16 = swing 16ths


** Generated using Power Tab Editor by Brad Larsen: The Official Power Tab Web Site

 

 

 

 

Back to Van Halen Tablature section

 
Sitemap

For people that like reading maps...

Sitemap »
Terms & Conditions

Nothing to see here, move along...

Terms and Conditions »
Help & Support

What is the tallest mountain in the world, and other useful answers.

Frequently Asked Questions (FAQ) »
Get in touch

Email: contact@ibanez-rg-review.com