Monday August 22, 2011
 

Syu Guitar Tab - Penta Line Demo

This ones a neat little Pentatonic lick with some added notes by Japanese guitarist Syu of the band Galneryus. It's a crazy fast shred. I couldn't find the official tabs so just did it off the video.

His guitar is tuned to E flat but the Guitar Tab is in Standard Tuning so just move the pattern up. It's important to get the alternative picking down right to get to the speed Syu plays at. Have fun!

#----------------------------------PLEASE NOTE---------------------------------#
#This file is the author's own work and represents their interpretation of the #
#song. You may only use this file for private study, scholarship, or research. #
#------------------------------------------------------------------------------#

Gtr I (E A D G B E) - Syu Penta Line Demo

 4/4
  Gtr I
|-10-7---------|
|------10-7----|
|--------------|   X3
|--------------|
|--------------|
|--------------|


|-9-7---------|
|-----10-7----|
|-------------|
|-------------|
|-------------|
|-------------|


|-10-7---------|
|------10-7----|
|--------------|
|--------------|
|--------------|
|--------------|


|-12-7---------|
|------10-7----|
|--------------|
|--------------|
|--------------|
|--------------|


|-10-7---------|
|------10-7----|
|--------------|
|--------------|
|--------------|
|--------------|


|-9-7---------|
|-----10-7----|
|-------------|
|-------------|
|-------------|
|-------------|


                                                T
|-9-10-9-7----7--------------------------------------|
|----------10---10-7-10-7----7-----------------------|
|-------------------------10---10-9p7---7-9b11-12----| 
|-------------------------------------9--------------|
|----------------------------------------------------|
|----------------------------------------------------|


|-------------------------------|
|-------------------------------|
|-9b11-7-9-7-6-7-6---6---6------|
|------------------7---7---7----| You can do some pinch harmonics here
|-------------------------------|
|-------------------------------|


|--------------|
|--------------|
|--------------|
|---7----------|
|-7---4-7------|
|---------5----|



    
   
   
    




Tablature Legend
----------------
 h   - hammer-on
 p   - pull-off
 b   - bend
 pb  - pre-bend
 r   - bend release (if no number after the r, then release immediately)
 /\  - slide into or out of (from/to "nowhere")
 s   - legato slide
 S   - shift slide
<n> - natural harmonic
[n]  - artificial harmonic
n(n) - tapped harmonic
 ~   - vibrato
 tr  - trill
 T   - tap
 TP  - trem. picking
 PM  - palm muting
\n/  - tremolo bar dip; n = amount to dip
 \n  - tremolo bar down
 n/  - tremolo bar up
/n\  - tremolo bar inverted dip
 =   - hold bend; also acts as connecting device for hammers/pulls
 <> - volume swell (louder/softer)
 x   - on rhythm slash represents muted slash
 o   - on rhythm slash represents single note slash

Misc Legend
-----------
 |  - bar
||  - double bar
||o - repeat start
o|| - repeat end
*|  - double bar (ending)
 :  - bar (freetime)
 $  - Segno
 &  - Coda
Tempo markers - <E/E./Q/Q./H/H.> = BPM(8/16=s8/s16), where s8 = swing 8ths, s16 = swing 16ths


** Generated using Power Tab Editor by Brad Larsen: The Official Power Tab Web Site

 

 

 

 

Back to Van Halen Tablature section

 
Sitemap

For people that like reading maps...

Sitemap »
Terms & Conditions

Nothing to see here, move along...

Terms and Conditions »
Help & Support

What is the tallest mountain in the world, and other useful answers.

Frequently Asked Questions (FAQ) »
Get in touch

Email: contact@ibanez-rg-review.com